ISO-10303-21;
HEADER;
/* Generated by software containing ST-Developer
 * from STEP Tools, Inc. (www.steptools.com) 
 */

FILE_DESCRIPTION(
/* description */ (''),
/* implementation_level */ '2;1');

FILE_NAME(
/* name */ 
'F:\\Engineering, Marketing\\Product Drawings\\STEP FILES\\MISC\\MH123
-1A.stp',
/* time_stamp */ '2017-05-05T17:03:01-04:00',
/* author */ ('aneininger'),
/* organization */ (''),
/* preprocessor_version */ 'ST-DEVELOPER v16.5',
/* originating_system */ 'Autodesk Inventor 2017',
/* authorisation */ '');

FILE_SCHEMA (('AUTOMOTIVE_DESIGN { 1 0 10303 214 3 1 1 }'));
ENDSEC;

DATA;
#10=MECHANICAL_DESIGN_GEOMETRIC_PRESENTATION_REPRESENTATION('',(#141,#142,
#143,#137,#139,#136,#138,#140,#135,#145,#146,#144,#148,#147),#288);
#11=SHAPE_REPRESENTATION_RELATIONSHIP('SRR','None',#300,#12);
#12=ADVANCED_BREP_SHAPE_REPRESENTATION('',(#13),#287);
#13=MANIFOLD_SOLID_BREP('Solid6',#162);
#14=TOROIDAL_SURFACE('',#186,0.59,0.03);
#15=PLANE('',#173);
#16=PLANE('',#174);
#17=PLANE('',#179);
#18=PLANE('',#184);
#19=PLANE('',#188);
#20=PLANE('',#193);
#21=PLANE('',#194);
#22=FACE_BOUND('',#47,.T.);
#23=FACE_BOUND('',#50,.T.);
#24=FACE_BOUND('',#52,.T.);
#25=FACE_BOUND('',#54,.T.);
#26=FACE_BOUND('',#56,.T.);
#27=FACE_BOUND('',#58,.T.);
#28=FACE_BOUND('',#60,.T.);
#29=FACE_BOUND('',#62,.T.);
#30=FACE_BOUND('',#64,.T.);
#31=FACE_BOUND('',#66,.T.);
#32=FACE_BOUND('',#69,.T.);
#33=FACE_OUTER_BOUND('',#46,.T.);
#34=FACE_OUTER_BOUND('',#48,.T.);
#35=FACE_OUTER_BOUND('',#49,.T.);
#36=FACE_OUTER_BOUND('',#51,.T.);
#37=FACE_OUTER_BOUND('',#53,.T.);
#38=FACE_OUTER_BOUND('',#55,.T.);
#39=FACE_OUTER_BOUND('',#57,.T.);
#40=FACE_OUTER_BOUND('',#59,.T.);
#41=FACE_OUTER_BOUND('',#61,.T.);
#42=FACE_OUTER_BOUND('',#63,.T.);
#43=FACE_OUTER_BOUND('',#65,.T.);
#44=FACE_OUTER_BOUND('',#67,.T.);
#45=FACE_OUTER_BOUND('',#68,.T.);
#46=EDGE_LOOP('',(#106));
#47=EDGE_LOOP('',(#107));
#48=EDGE_LOOP('',(#108));
#49=EDGE_LOOP('',(#109));
#50=EDGE_LOOP('',(#110));
#51=EDGE_LOOP('',(#111));
#52=EDGE_LOOP('',(#112));
#53=EDGE_LOOP('',(#113));
#54=EDGE_LOOP('',(#114));
#55=EDGE_LOOP('',(#115));
#56=EDGE_LOOP('',(#116));
#57=EDGE_LOOP('',(#117));
#58=EDGE_LOOP('',(#118));
#59=EDGE_LOOP('',(#119));
#60=EDGE_LOOP('',(#120));
#61=EDGE_LOOP('',(#121));
#62=EDGE_LOOP('',(#122));
#63=EDGE_LOOP('',(#123));
#64=EDGE_LOOP('',(#124));
#65=EDGE_LOOP('',(#125));
#66=EDGE_LOOP('',(#126));
#67=EDGE_LOOP('',(#127));
#68=EDGE_LOOP('',(#128));
#69=EDGE_LOOP('',(#129));
#70=CIRCLE('',#171,0.1055);
#71=CIRCLE('',#172,0.1055);
#72=CIRCLE('',#175,0.6275);
#73=CIRCLE('',#176,0.62);
#74=CIRCLE('',#178,0.62);
#75=CIRCLE('',#180,0.6275);
#76=CIRCLE('',#181,0.62);
#77=CIRCLE('',#183,0.62);
#78=CIRCLE('',#185,0.455);
#79=CIRCLE('',#187,0.59);
#80=CIRCLE('',#191,0.45);
#81=CIRCLE('',#192,0.45);
#82=VERTEX_POINT('',#249);
#83=VERTEX_POINT('',#251);
#84=VERTEX_POINT('',#255);
#85=VERTEX_POINT('',#257);
#86=VERTEX_POINT('',#260);
#87=VERTEX_POINT('',#263);
#88=VERTEX_POINT('',#265);
#89=VERTEX_POINT('',#268);
#90=VERTEX_POINT('',#271);
#91=VERTEX_POINT('',#274);
#92=VERTEX_POINT('',#279);
#93=VERTEX_POINT('',#281);
#94=EDGE_CURVE('',#82,#82,#70,.T.);
#95=EDGE_CURVE('',#83,#83,#71,.T.);
#96=EDGE_CURVE('',#84,#84,#72,.T.);
#97=EDGE_CURVE('',#85,#85,#73,.T.);
#98=EDGE_CURVE('',#86,#86,#74,.T.);
#99=EDGE_CURVE('',#87,#87,#75,.T.);
#100=EDGE_CURVE('',#88,#88,#76,.T.);
#101=EDGE_CURVE('',#89,#89,#77,.T.);
#102=EDGE_CURVE('',#90,#90,#78,.T.);
#103=EDGE_CURVE('',#91,#91,#79,.T.);
#104=EDGE_CURVE('',#92,#92,#80,.T.);
#105=EDGE_CURVE('',#93,#93,#81,.T.);
#106=ORIENTED_EDGE('',*,*,#94,.F.);
#107=ORIENTED_EDGE('',*,*,#95,.F.);
#108=ORIENTED_EDGE('',*,*,#95,.T.);
#109=ORIENTED_EDGE('',*,*,#96,.F.);
#110=ORIENTED_EDGE('',*,*,#97,.F.);
#111=ORIENTED_EDGE('',*,*,#97,.T.);
#112=ORIENTED_EDGE('',*,*,#98,.F.);
#113=ORIENTED_EDGE('',*,*,#99,.F.);
#114=ORIENTED_EDGE('',*,*,#100,.T.);
#115=ORIENTED_EDGE('',*,*,#101,.F.);
#116=ORIENTED_EDGE('',*,*,#100,.F.);
#117=ORIENTED_EDGE('',*,*,#98,.T.);
#118=ORIENTED_EDGE('',*,*,#102,.F.);
#119=ORIENTED_EDGE('',*,*,#103,.F.);
#120=ORIENTED_EDGE('',*,*,#101,.T.);
#121=ORIENTED_EDGE('',*,*,#103,.T.);
#122=ORIENTED_EDGE('',*,*,#94,.T.);
#123=ORIENTED_EDGE('',*,*,#96,.T.);
#124=ORIENTED_EDGE('',*,*,#99,.T.);
#125=ORIENTED_EDGE('',*,*,#104,.T.);
#126=ORIENTED_EDGE('',*,*,#105,.F.);
#127=ORIENTED_EDGE('',*,*,#104,.F.);
#128=ORIENTED_EDGE('',*,*,#102,.T.);
#129=ORIENTED_EDGE('',*,*,#105,.T.);
#130=CYLINDRICAL_SURFACE('',#170,0.1055);
#131=CYLINDRICAL_SURFACE('',#177,0.62);
#132=CYLINDRICAL_SURFACE('',#182,0.62);
#133=CYLINDRICAL_SURFACE('',#189,0.6275);
#134=CYLINDRICAL_SURFACE('',#190,0.45);
#135=STYLED_ITEM('',(#310),#149);
#136=STYLED_ITEM('',(#310),#150);
#137=STYLED_ITEM('',(#310),#151);
#138=STYLED_ITEM('',(#310),#152);
#139=STYLED_ITEM('',(#310),#153);
#140=STYLED_ITEM('',(#310),#154);
#141=STYLED_ITEM('',(#310),#155);
#142=STYLED_ITEM('',(#310),#156);
#143=STYLED_ITEM('',(#310),#157);
#144=STYLED_ITEM('',(#311),#158);
#145=STYLED_ITEM('',(#310),#159);
#146=STYLED_ITEM('',(#310),#160);
#147=STYLED_ITEM('',(#312),#161);
#148=STYLED_ITEM('',(#309),#13);
#149=ADVANCED_FACE('',(#33,#22),#130,.F.);
#150=ADVANCED_FACE('',(#34),#15,.T.);
#151=ADVANCED_FACE('',(#35,#23),#16,.F.);
#152=ADVANCED_FACE('',(#36,#24),#131,.T.);
#153=ADVANCED_FACE('',(#37,#25),#17,.F.);
#154=ADVANCED_FACE('',(#38,#26),#132,.T.);
#155=ADVANCED_FACE('',(#39,#27),#18,.T.);
#156=ADVANCED_FACE('',(#40,#28),#14,.T.);
#157=ADVANCED_FACE('',(#41,#29),#19,.T.);
#158=ADVANCED_FACE('',(#42,#30),#133,.T.);
#159=ADVANCED_FACE('',(#43,#31),#134,.T.);
#160=ADVANCED_FACE('',(#44),#20,.F.);
#161=ADVANCED_FACE('',(#45,#32),#21,.F.);
#162=CLOSED_SHELL('',(#149,#150,#151,#152,#153,#154,#155,#156,#157,#158,
#159,#160,#161));
#163=DATE_TIME_ROLE('creation_date');
#164=APPLIED_DATE_AND_TIME_ASSIGNMENT(#165,#163,(#302));
#165=DATE_AND_TIME(#166,#167);
#166=CALENDAR_DATE(2010,11,8);
#167=LOCAL_TIME(11,11,59.,#168);
#168=COORDINATED_UNIVERSAL_TIME_OFFSET(0,0,.BEHIND.);
#169=AXIS2_PLACEMENT_3D('placement',#247,#195,#196);
#170=AXIS2_PLACEMENT_3D('',#248,#197,#198);
#171=AXIS2_PLACEMENT_3D('',#250,#199,#200);
#172=AXIS2_PLACEMENT_3D('',#252,#201,#202);
#173=AXIS2_PLACEMENT_3D('',#253,#203,#204);
#174=AXIS2_PLACEMENT_3D('',#254,#205,#206);
#175=AXIS2_PLACEMENT_3D('',#256,#207,#208);
#176=AXIS2_PLACEMENT_3D('',#258,#209,#210);
#177=AXIS2_PLACEMENT_3D('',#259,#211,#212);
#178=AXIS2_PLACEMENT_3D('',#261,#213,#214);
#179=AXIS2_PLACEMENT_3D('',#262,#215,#216);
#180=AXIS2_PLACEMENT_3D('',#264,#217,#218);
#181=AXIS2_PLACEMENT_3D('',#266,#219,#220);
#182=AXIS2_PLACEMENT_3D('',#267,#221,#222);
#183=AXIS2_PLACEMENT_3D('',#269,#223,#224);
#184=AXIS2_PLACEMENT_3D('',#270,#225,#226);
#185=AXIS2_PLACEMENT_3D('',#272,#227,#228);
#186=AXIS2_PLACEMENT_3D('',#273,#229,#230);
#187=AXIS2_PLACEMENT_3D('',#275,#231,#232);
#188=AXIS2_PLACEMENT_3D('',#276,#233,#234);
#189=AXIS2_PLACEMENT_3D('',#277,#235,#236);
#190=AXIS2_PLACEMENT_3D('',#278,#237,#238);
#191=AXIS2_PLACEMENT_3D('',#280,#239,#240);
#192=AXIS2_PLACEMENT_3D('',#282,#241,#242);
#193=AXIS2_PLACEMENT_3D('',#283,#243,#244);
#194=AXIS2_PLACEMENT_3D('',#284,#245,#246);
#195=DIRECTION('axis',(0.,0.,1.));
#196=DIRECTION('refdir',(1.,0.,0.));
#197=DIRECTION('center_axis',(-3.92446881719825E-31,1.,4.12425276617253E-16));
#198=DIRECTION('ref_axis',(-1.,-1.87145528586343E-31,-3.60822483003176E-16));
#199=DIRECTION('center_axis',(3.92446881719825E-31,-1.,-4.12425276617253E-16));
#200=DIRECTION('ref_axis',(-1.,-1.87145528586343E-31,-3.60822483003176E-16));
#201=DIRECTION('center_axis',(-3.92446881719825E-31,1.,4.12425276617253E-16));
#202=DIRECTION('ref_axis',(-1.,-1.87145528586343E-31,-3.60822483003176E-16));
#203=DIRECTION('center_axis',(-3.92446881719825E-31,1.,4.12425276617253E-16));
#204=DIRECTION('ref_axis',(-1.,0.,-3.60822483003176E-16));
#205=DIRECTION('center_axis',(-3.94430452610506E-31,1.,4.12425276617253E-16));
#206=DIRECTION('ref_axis',(-2.8199664825479E-16,-4.22994972382185E-16,1.));
#207=DIRECTION('center_axis',(-3.94430452610506E-31,1.,4.12425276617253E-16));
#208=DIRECTION('ref_axis',(-1.,-1.89129099477025E-31,-3.60822483003176E-16));
#209=DIRECTION('center_axis',(3.94430452610506E-31,-1.,-4.12425276617253E-16));
#210=DIRECTION('ref_axis',(-1.,-1.89129099477025E-31,-3.60822483003176E-16));
#211=DIRECTION('center_axis',(3.94430452610506E-31,-1.,-4.12425276617253E-16));
#212=DIRECTION('ref_axis',(-1.,-1.89129099477025E-31,-3.60822483003176E-16));
#213=DIRECTION('center_axis',(3.92446881719825E-31,-1.,-4.12425276617253E-16));
#214=DIRECTION('ref_axis',(-1.,-1.89129099477025E-31,-3.60822483003176E-16));
#215=DIRECTION('center_axis',(3.94430452610506E-31,-1.,-4.12425276617253E-16));
#216=DIRECTION('ref_axis',(2.8199664825479E-16,2.8199664825479E-16,-1.));
#217=DIRECTION('center_axis',(3.94430452610506E-31,-1.,-4.12425276617253E-16));
#218=DIRECTION('ref_axis',(-1.,-1.89129099477025E-31,-3.60822483003176E-16));
#219=DIRECTION('center_axis',(3.94430452610506E-31,-1.,-4.12425276617253E-16));
#220=DIRECTION('ref_axis',(-1.,-1.89129099477025E-31,-3.60822483003176E-16));
#221=DIRECTION('center_axis',(3.94430452610506E-31,-1.,-4.12425276617253E-16));
#222=DIRECTION('ref_axis',(-1.,-1.89129099477025E-31,-3.60822483003176E-16));
#223=DIRECTION('center_axis',(-3.92446881719825E-31,1.,4.12425276617253E-16));
#224=DIRECTION('ref_axis',(-1.,-1.89129099477025E-31,-3.60822483003176E-16));
#225=DIRECTION('center_axis',(3.92446881719825E-31,-1.,-4.12425276617253E-16));
#226=DIRECTION('ref_axis',(2.8199664825479E-16,4.14182577124222E-16,-1.));
#227=DIRECTION('center_axis',(-2.22044604925031E-16,-1.,-1.4791141972894E-31));
#228=DIRECTION('ref_axis',(-1.,8.67064617699144E-33,-5.55111512312581E-17));
#229=DIRECTION('center_axis',(-3.92446881719825E-31,1.,4.12425276617253E-16));
#230=DIRECTION('ref_axis',(-3.60822483003176E-16,-3.58136459556502E-16,
1.));
#231=DIRECTION('center_axis',(-3.92446881719825E-31,1.,4.12425276617253E-16));
#232=DIRECTION('ref_axis',(-1.,-1.89129099477025E-31,-3.60822483003176E-16));
#233=DIRECTION('center_axis',(-3.92446881719825E-31,1.,4.12425276617253E-16));
#234=DIRECTION('ref_axis',(-4.22994972382185E-16,-2.8199664825479E-16,1.));
#235=DIRECTION('center_axis',(-3.92446881719825E-31,1.,4.12425276617253E-16));
#236=DIRECTION('ref_axis',(-1.,-1.89129099477025E-31,-3.60822483003176E-16));
#237=DIRECTION('center_axis',(-2.52442873578069E-32,-1.,-1.11838102317006E-47));
#238=DIRECTION('ref_axis',(-1.,2.52442873578069E-32,-5.17814957579077E-16));
#239=DIRECTION('center_axis',(2.52442873578069E-32,1.,1.11838102317006E-47));
#240=DIRECTION('ref_axis',(-1.,2.52442873578069E-32,-5.17814957579077E-16));
#241=DIRECTION('center_axis',(2.22044604925031E-16,1.,1.4791141972894E-31));
#242=DIRECTION('ref_axis',(-1.,6.2450045135165E-17,4.48209178105508E-16));
#243=DIRECTION('center_axis',(2.52442873578069E-32,1.,1.11838102317006E-47));
#244=DIRECTION('ref_axis',(-1.,0.,-5.17814957579077E-16));
#245=DIRECTION('center_axis',(2.22044604925031E-16,1.,1.4791141972894E-31));
#246=DIRECTION('ref_axis',(-1.,2.20309881449055E-16,2.22044604925031E-16));
#247=CARTESIAN_POINT('',(0.,0.,0.));
#248=CARTESIAN_POINT('Origin',(-2.62257407391769E-16,0.560000000000001,
5.19956305449763E-17));
#249=CARTESIAN_POINT('',(-0.1055,0.685000000000001,6.54820181652978E-17));
#250=CARTESIAN_POINT('Origin',(-2.6225740739177E-16,0.685000000000001,1.03548790122133E-16));
#251=CARTESIAN_POINT('',(-0.1055,0.435000000000001,-3.76243009890155E-17));
#252=CARTESIAN_POINT('Origin',(-2.62257407391769E-16,0.435000000000001,
4.4247096781966E-19));
#253=CARTESIAN_POINT('Origin',(-2.62257407391769E-16,0.435000000000001,
4.4247096781966E-19));
#254=CARTESIAN_POINT('Origin',(-0.62375,0.0975000000000007,-3.63814083663735E-16));
#255=CARTESIAN_POINT('',(-0.6275,0.0975000000000007,-3.65167167974996E-16));
#256=CARTESIAN_POINT('Origin',(-2.62257407391769E-16,0.0975000000000007,
-1.38751059890503E-16));
#257=CARTESIAN_POINT('',(-0.62,0.0975000000000007,-3.62460999352473E-16));
#258=CARTESIAN_POINT('Origin',(-2.62257407391769E-16,0.0975000000000007,
-1.38751059890503E-16));
#259=CARTESIAN_POINT('Origin',(-2.62257407391769E-16,0.0537500000000007,
-1.56794665742508E-16));
#260=CARTESIAN_POINT('',(-0.62,0.0100000000000007,-3.98548211056482E-16));
#261=CARTESIAN_POINT('Origin',(-2.62257407391769E-16,0.0100000000000007,
-1.74838271594513E-16));
#262=CARTESIAN_POINT('Origin',(-0.62375,0.597500000000001,-1.57601445355108E-16));
#263=CARTESIAN_POINT('',(-0.6275,0.597500000000001,-1.5895452966637E-16));
#264=CARTESIAN_POINT('Origin',(-2.62257407391769E-16,0.597500000000001,
6.74615784181232E-17));
#265=CARTESIAN_POINT('',(-0.62,0.597500000000001,-1.56248361043846E-16));
#266=CARTESIAN_POINT('Origin',(-2.62257407391769E-16,0.597500000000001,
6.74615784181232E-17));
#267=CARTESIAN_POINT('Origin',(-2.62257407391769E-16,0.626250000000001,
7.93188051208693E-17));
#268=CARTESIAN_POINT('',(-0.62,0.655000000000001,-1.32533907638354E-16));
#269=CARTESIAN_POINT('Origin',(-2.6225740739177E-16,0.655000000000001,9.11760318236153E-17));
#270=CARTESIAN_POINT('Origin',(-0.5375,0.0100000000000007,-3.6878035620872E-16));
#271=CARTESIAN_POINT('',(-0.455,0.0100000000000004,-1.10670278333607E-16));
#272=CARTESIAN_POINT('Origin',(2.58507845340003E-16,0.00999999999999986,
-8.54127045233842E-17));
#273=CARTESIAN_POINT('Origin',(-2.6225740739177E-16,0.655000000000001,9.11760318236153E-17));
#274=CARTESIAN_POINT('',(-0.59,0.685000000000001,-1.09336474849741E-16));
#275=CARTESIAN_POINT('Origin',(-2.6225740739177E-16,0.685000000000001,1.03548790122133E-16));
#276=CARTESIAN_POINT('Origin',(-0.295,0.685000000000001,-2.89384236380418E-18));
#277=CARTESIAN_POINT('Origin',(-2.62257407391769E-16,0.347500000000001,
-3.564474073619E-17));
#278=CARTESIAN_POINT('Origin',(-8.74191357972564E-17,0.38,0.));
#279=CARTESIAN_POINT('',(0.45,2.62257407391769E-16,2.88125836872215E-16));
#280=CARTESIAN_POINT('Origin',(-8.74191357972564E-17,2.62257407391769E-16,
-4.24984788804621E-48));
#281=CARTESIAN_POINT('',(0.45,0.00999999999999983,-2.79576208401517E-16));
#282=CARTESIAN_POINT('Origin',(3.83071784420018E-16,0.00999999999999986,
-2.27729722924078E-17));
#283=CARTESIAN_POINT('Origin',(-8.74191357972564E-17,2.62257407391769E-16,
-4.24984788804621E-48));
#284=CARTESIAN_POINT('Origin',(4.39316125035533E-16,0.00999999999999986,
-1.22464679914747E-18));
#285=UNCERTAINTY_MEASURE_WITH_UNIT(LENGTH_MEASURE(0.000393700787401575),
#289,'DISTANCE_ACCURACY_VALUE',
'Maximum model space distance between geometric entities at asserted c
onnectivities');
#286=UNCERTAINTY_MEASURE_WITH_UNIT(LENGTH_MEASURE(1.E-6),#290,
'DISTANCE_ACCURACY_VALUE',
'Maximum model space distance between geometric entities at asserted c
onnectivities');
#287=(
GEOMETRIC_REPRESENTATION_CONTEXT(3)
GLOBAL_UNCERTAINTY_ASSIGNED_CONTEXT((#285))
GLOBAL_UNIT_ASSIGNED_CONTEXT((#289,#295,#292))
REPRESENTATION_CONTEXT('','3D')
);
#288=(
GEOMETRIC_REPRESENTATION_CONTEXT(3)
GLOBAL_UNCERTAINTY_ASSIGNED_CONTEXT((#286))
GLOBAL_UNIT_ASSIGNED_CONTEXT((#290,#295,#292))
REPRESENTATION_CONTEXT('','3D')
);
#289=(
CONVERSION_BASED_UNIT('__CONSTANT UNIT inch',#291)
LENGTH_UNIT()
NAMED_UNIT(#294)
);
#290=(
LENGTH_UNIT()
NAMED_UNIT(*)
SI_UNIT(.MILLI.,.METRE.)
);
#291=LENGTH_MEASURE_WITH_UNIT(LENGTH_MEASURE(25.4),#290);
#292=(
NAMED_UNIT(*)
SI_UNIT($,.STERADIAN.)
SOLID_ANGLE_UNIT()
);
#293=DIMENSIONAL_EXPONENTS(0.,0.,0.,0.,0.,0.,0.);
#294=DIMENSIONAL_EXPONENTS(1.,0.,0.,0.,0.,0.,0.);
#295=(
CONVERSION_BASED_UNIT('degree',#297)
NAMED_UNIT(#293)
PLANE_ANGLE_UNIT()
);
#296=(
NAMED_UNIT(*)
PLANE_ANGLE_UNIT()
SI_UNIT($,.RADIAN.)
);
#297=PLANE_ANGLE_MEASURE_WITH_UNIT(PLANE_ANGLE_MEASURE(0.01745329252),#296);
#298=SHAPE_DEFINITION_REPRESENTATION(#299,#300);
#299=PRODUCT_DEFINITION_SHAPE('',$,#302);
#300=SHAPE_REPRESENTATION('',(#169),#287);
#301=PRODUCT_DEFINITION_CONTEXT('part definition',#306,'design');
#302=PRODUCT_DEFINITION('MH123-1A','MH123-1A',#303,#301);
#303=PRODUCT_DEFINITION_FORMATION('',$,#308);
#304=PRODUCT_RELATED_PRODUCT_CATEGORY('MH123-1A','MH123-1A',(#308));
#305=APPLICATION_PROTOCOL_DEFINITION('international standard',
'automotive_design',2009,#306);
#306=APPLICATION_CONTEXT(
'Core Data for Automotive Mechanical Design Process');
#307=PRODUCT_CONTEXT('part definition',#306,'mechanical');
#308=PRODUCT('MH123-1A','MH123-1A',$,(#307));
#309=PRESENTATION_STYLE_ASSIGNMENT((#313));
#310=PRESENTATION_STYLE_ASSIGNMENT((#314));
#311=PRESENTATION_STYLE_ASSIGNMENT((#315));
#312=PRESENTATION_STYLE_ASSIGNMENT((#316));
#313=SURFACE_STYLE_USAGE(.BOTH.,#317);
#314=SURFACE_STYLE_USAGE(.BOTH.,#318);
#315=SURFACE_STYLE_USAGE(.BOTH.,#319);
#316=SURFACE_STYLE_USAGE(.BOTH.,#320);
#317=SURFACE_SIDE_STYLE('',(#321));
#318=SURFACE_SIDE_STYLE('',(#322));
#319=SURFACE_SIDE_STYLE('',(#323));
#320=SURFACE_SIDE_STYLE('',(#324));
#321=SURFACE_STYLE_FILL_AREA(#325);
#322=SURFACE_STYLE_FILL_AREA(#326);
#323=SURFACE_STYLE_FILL_AREA(#327);
#324=SURFACE_STYLE_FILL_AREA(#328);
#325=FILL_AREA_STYLE('',(#329));
#326=FILL_AREA_STYLE('',(#330));
#327=FILL_AREA_STYLE('',(#331));
#328=FILL_AREA_STYLE('',(#332));
#329=FILL_AREA_STYLE_COLOUR('',#333);
#330=FILL_AREA_STYLE_COLOUR('',#334);
#331=FILL_AREA_STYLE_COLOUR('',#335);
#332=FILL_AREA_STYLE_COLOUR('',#336);
#333=COLOUR_RGB('',0.749019607843137,0.749019607843137,0.749019607843137);
#334=COLOUR_RGB('',0.956862745098039,0.956862745098039,0.956862745098039);
#335=COLOUR_RGB('',0.541176470588235,0.541176470588235,0.545098039215686);
#336=COLOUR_RGB('',0.,0.,0.);
ENDSEC;
END-ISO-10303-21;
