ISO-10303-21;
HEADER;
/* Generated by software containing ST-Developer
 * from STEP Tools, Inc. (www.steptools.com) 
 */

FILE_DESCRIPTION(
/* description */ (''),
/* implementation_level */ '2;1');

FILE_NAME(
/* name */ 
'F:\\Engineering, Marketing\\Product Drawings\\STEP FILES\\MISC\\MH136
-1A.stp',
/* time_stamp */ '2017-05-05T17:03:42-04:00',
/* author */ ('aneininger'),
/* organization */ (''),
/* preprocessor_version */ 'ST-DEVELOPER v16.5',
/* originating_system */ 'Autodesk Inventor 2017',
/* authorisation */ '');

FILE_SCHEMA (('AUTOMOTIVE_DESIGN { 1 0 10303 214 3 1 1 }'));
ENDSEC;

DATA;
#10=MECHANICAL_DESIGN_GEOMETRIC_PRESENTATION_REPRESENTATION('',(#171,#170,
#172,#173,#174,#175,#176,#177,#178,#179,#183,#180,#182,#181,#184,#185,#186),
#361);
#11=SHAPE_REPRESENTATION_RELATIONSHIP('SRR','None',#373,#12);
#12=ADVANCED_BREP_SHAPE_REPRESENTATION('',(#13),#360);
#13=MANIFOLD_SOLID_BREP('Solid2',#203);
#14=TOROIDAL_SURFACE('',#233,0.34,0.03);
#15=CONICAL_SURFACE('',#225,0.11425,45.);
#16=CONICAL_SURFACE('',#230,0.11425,45.);
#17=CYLINDRICAL_SURFACE('',#218,0.37);
#18=CYLINDRICAL_SURFACE('',#223,0.37);
#19=CYLINDRICAL_SURFACE('',#228,0.125);
#20=CYLINDRICAL_SURFACE('',#237,0.1035);
#21=CYLINDRICAL_SURFACE('',#239,0.3775);
#22=CYLINDRICAL_SURFACE('',#240,0.325);
#23=FACE_BOUND('',#54,.T.);
#24=FACE_BOUND('',#56,.T.);
#25=FACE_BOUND('',#58,.T.);
#26=FACE_BOUND('',#60,.T.);
#27=FACE_BOUND('',#62,.T.);
#28=FACE_BOUND('',#64,.T.);
#29=FACE_BOUND('',#66,.T.);
#30=FACE_BOUND('',#68,.T.);
#31=FACE_BOUND('',#71,.T.);
#32=FACE_BOUND('',#73,.T.);
#33=FACE_BOUND('',#75,.T.);
#34=FACE_BOUND('',#77,.T.);
#35=FACE_BOUND('',#79,.T.);
#36=FACE_BOUND('',#81,.T.);
#37=FACE_OUTER_BOUND('',#53,.T.);
#38=FACE_OUTER_BOUND('',#55,.T.);
#39=FACE_OUTER_BOUND('',#57,.T.);
#40=FACE_OUTER_BOUND('',#59,.T.);
#41=FACE_OUTER_BOUND('',#61,.T.);
#42=FACE_OUTER_BOUND('',#63,.T.);
#43=FACE_OUTER_BOUND('',#65,.T.);
#44=FACE_OUTER_BOUND('',#67,.T.);
#45=FACE_OUTER_BOUND('',#69,.T.);
#46=FACE_OUTER_BOUND('',#70,.T.);
#47=FACE_OUTER_BOUND('',#72,.T.);
#48=FACE_OUTER_BOUND('',#74,.T.);
#49=FACE_OUTER_BOUND('',#76,.T.);
#50=FACE_OUTER_BOUND('',#78,.T.);
#51=FACE_OUTER_BOUND('',#80,.T.);
#52=FACE_OUTER_BOUND('',#82,.T.);
#53=EDGE_LOOP('',(#131,#132));
#54=EDGE_LOOP('',(#133));
#55=EDGE_LOOP('',(#134));
#56=EDGE_LOOP('',(#135));
#57=EDGE_LOOP('',(#136));
#58=EDGE_LOOP('',(#137));
#59=EDGE_LOOP('',(#138));
#60=EDGE_LOOP('',(#139));
#61=EDGE_LOOP('',(#140));
#62=EDGE_LOOP('',(#141));
#63=EDGE_LOOP('',(#142));
#64=EDGE_LOOP('',(#143));
#65=EDGE_LOOP('',(#144));
#66=EDGE_LOOP('',(#145));
#67=EDGE_LOOP('',(#146));
#68=EDGE_LOOP('',(#147));
#69=EDGE_LOOP('',(#148));
#70=EDGE_LOOP('',(#149));
#71=EDGE_LOOP('',(#150));
#72=EDGE_LOOP('',(#151));
#73=EDGE_LOOP('',(#152));
#74=EDGE_LOOP('',(#153));
#75=EDGE_LOOP('',(#154));
#76=EDGE_LOOP('',(#155));
#77=EDGE_LOOP('',(#156,#157));
#78=EDGE_LOOP('',(#158));
#79=EDGE_LOOP('',(#159));
#80=EDGE_LOOP('',(#160));
#81=EDGE_LOOP('',(#161));
#82=EDGE_LOOP('',(#162));
#83=CIRCLE('',#212,0.33);
#84=CIRCLE('',#213,0.33);
#85=CIRCLE('',#214,0.325);
#86=CIRCLE('',#216,0.3775);
#87=CIRCLE('',#217,0.37);
#88=CIRCLE('',#219,0.37);
#89=CIRCLE('',#221,0.3775);
#90=CIRCLE('',#222,0.37);
#91=CIRCLE('',#224,0.37);
#92=CIRCLE('',#226,0.1035);
#93=CIRCLE('',#227,0.125);
#94=CIRCLE('',#229,0.125);
#95=CIRCLE('',#231,0.1035);
#96=CIRCLE('',#234,0.34);
#97=CIRCLE('',#236,0.1035);
#98=CIRCLE('',#241,0.325);
#99=VERTEX_POINT('',#311);
#100=VERTEX_POINT('',#312);
#101=VERTEX_POINT('',#315);
#102=VERTEX_POINT('',#318);
#103=VERTEX_POINT('',#320);
#104=VERTEX_POINT('',#323);
#105=VERTEX_POINT('',#326);
#106=VERTEX_POINT('',#328);
#107=VERTEX_POINT('',#331);
#108=VERTEX_POINT('',#334);
#109=VERTEX_POINT('',#336);
#110=VERTEX_POINT('',#339);
#111=VERTEX_POINT('',#342);
#112=VERTEX_POINT('',#346);
#113=VERTEX_POINT('',#349);
#114=VERTEX_POINT('',#355);
#115=EDGE_CURVE('',#99,#100,#83,.T.);
#116=EDGE_CURVE('',#100,#99,#84,.T.);
#117=EDGE_CURVE('',#101,#101,#85,.T.);
#118=EDGE_CURVE('',#102,#102,#86,.T.);
#119=EDGE_CURVE('',#103,#103,#87,.T.);
#120=EDGE_CURVE('',#104,#104,#88,.T.);
#121=EDGE_CURVE('',#105,#105,#89,.T.);
#122=EDGE_CURVE('',#106,#106,#90,.T.);
#123=EDGE_CURVE('',#107,#107,#91,.T.);
#124=EDGE_CURVE('',#108,#108,#92,.T.);
#125=EDGE_CURVE('',#109,#109,#93,.T.);
#126=EDGE_CURVE('',#110,#110,#94,.T.);
#127=EDGE_CURVE('',#111,#111,#95,.T.);
#128=EDGE_CURVE('',#112,#112,#96,.T.);
#129=EDGE_CURVE('',#113,#113,#97,.T.);
#130=EDGE_CURVE('',#114,#114,#98,.T.);
#131=ORIENTED_EDGE('',*,*,#115,.F.);
#132=ORIENTED_EDGE('',*,*,#116,.F.);
#133=ORIENTED_EDGE('',*,*,#117,.F.);
#134=ORIENTED_EDGE('',*,*,#118,.F.);
#135=ORIENTED_EDGE('',*,*,#119,.F.);
#136=ORIENTED_EDGE('',*,*,#119,.T.);
#137=ORIENTED_EDGE('',*,*,#120,.F.);
#138=ORIENTED_EDGE('',*,*,#121,.F.);
#139=ORIENTED_EDGE('',*,*,#122,.T.);
#140=ORIENTED_EDGE('',*,*,#123,.F.);
#141=ORIENTED_EDGE('',*,*,#122,.F.);
#142=ORIENTED_EDGE('',*,*,#124,.T.);
#143=ORIENTED_EDGE('',*,*,#125,.T.);
#144=ORIENTED_EDGE('',*,*,#126,.F.);
#145=ORIENTED_EDGE('',*,*,#125,.F.);
#146=ORIENTED_EDGE('',*,*,#126,.T.);
#147=ORIENTED_EDGE('',*,*,#127,.T.);
#148=ORIENTED_EDGE('',*,*,#127,.F.);
#149=ORIENTED_EDGE('',*,*,#128,.F.);
#150=ORIENTED_EDGE('',*,*,#123,.T.);
#151=ORIENTED_EDGE('',*,*,#128,.T.);
#152=ORIENTED_EDGE('',*,*,#129,.F.);
#153=ORIENTED_EDGE('',*,*,#124,.F.);
#154=ORIENTED_EDGE('',*,*,#129,.T.);
#155=ORIENTED_EDGE('',*,*,#120,.T.);
#156=ORIENTED_EDGE('',*,*,#116,.T.);
#157=ORIENTED_EDGE('',*,*,#115,.T.);
#158=ORIENTED_EDGE('',*,*,#118,.T.);
#159=ORIENTED_EDGE('',*,*,#121,.T.);
#160=ORIENTED_EDGE('',*,*,#117,.T.);
#161=ORIENTED_EDGE('',*,*,#130,.F.);
#162=ORIENTED_EDGE('',*,*,#130,.T.);
#163=PLANE('',#211);
#164=PLANE('',#215);
#165=PLANE('',#220);
#166=PLANE('',#232);
#167=PLANE('',#235);
#168=PLANE('',#238);
#169=PLANE('',#242);
#170=STYLED_ITEM('',(#383),#187);
#171=STYLED_ITEM('',(#384),#188);
#172=STYLED_ITEM('',(#384),#189);
#173=STYLED_ITEM('',(#384),#190);
#174=STYLED_ITEM('',(#384),#191);
#175=STYLED_ITEM('',(#384),#192);
#176=STYLED_ITEM('',(#384),#193);
#177=STYLED_ITEM('',(#384),#194);
#178=STYLED_ITEM('',(#384),#195);
#179=STYLED_ITEM('',(#384),#196);
#180=STYLED_ITEM('',(#384),#197);
#181=STYLED_ITEM('',(#384),#198);
#182=STYLED_ITEM('',(#384),#199);
#183=STYLED_ITEM('',(#385),#200);
#184=STYLED_ITEM('',(#384),#201);
#185=STYLED_ITEM('',(#384),#202);
#186=STYLED_ITEM('',(#382),#13);
#187=ADVANCED_FACE('',(#37,#23),#163,.T.);
#188=ADVANCED_FACE('',(#38,#24),#164,.F.);
#189=ADVANCED_FACE('',(#39,#25),#17,.T.);
#190=ADVANCED_FACE('',(#40,#26),#165,.F.);
#191=ADVANCED_FACE('',(#41,#27),#18,.T.);
#192=ADVANCED_FACE('',(#42,#28),#15,.T.);
#193=ADVANCED_FACE('',(#43,#29),#19,.T.);
#194=ADVANCED_FACE('',(#44,#30),#16,.T.);
#195=ADVANCED_FACE('',(#45),#166,.T.);
#196=ADVANCED_FACE('',(#46,#31),#14,.T.);
#197=ADVANCED_FACE('',(#47,#32),#167,.T.);
#198=ADVANCED_FACE('',(#48,#33),#20,.T.);
#199=ADVANCED_FACE('',(#49,#34),#168,.T.);
#200=ADVANCED_FACE('',(#50,#35),#21,.T.);
#201=ADVANCED_FACE('',(#51,#36),#22,.T.);
#202=ADVANCED_FACE('',(#52),#169,.T.);
#203=CLOSED_SHELL('',(#187,#188,#189,#190,#191,#192,#193,#194,#195,#196,
#197,#198,#199,#200,#201,#202));
#204=DATE_TIME_ROLE('creation_date');
#205=APPLIED_DATE_AND_TIME_ASSIGNMENT(#206,#204,(#375));
#206=DATE_AND_TIME(#207,#208);
#207=CALENDAR_DATE(2010,7,6);
#208=LOCAL_TIME(18,54,58.,#209);
#209=COORDINATED_UNIVERSAL_TIME_OFFSET(0,0,.BEHIND.);
#210=AXIS2_PLACEMENT_3D('placement',#309,#243,#244);
#211=AXIS2_PLACEMENT_3D('',#310,#245,#246);
#212=AXIS2_PLACEMENT_3D('',#313,#247,#248);
#213=AXIS2_PLACEMENT_3D('',#314,#249,#250);
#214=AXIS2_PLACEMENT_3D('',#316,#251,#252);
#215=AXIS2_PLACEMENT_3D('',#317,#253,#254);
#216=AXIS2_PLACEMENT_3D('',#319,#255,#256);
#217=AXIS2_PLACEMENT_3D('',#321,#257,#258);
#218=AXIS2_PLACEMENT_3D('',#322,#259,#260);
#219=AXIS2_PLACEMENT_3D('',#324,#261,#262);
#220=AXIS2_PLACEMENT_3D('',#325,#263,#264);
#221=AXIS2_PLACEMENT_3D('',#327,#265,#266);
#222=AXIS2_PLACEMENT_3D('',#329,#267,#268);
#223=AXIS2_PLACEMENT_3D('',#330,#269,#270);
#224=AXIS2_PLACEMENT_3D('',#332,#271,#272);
#225=AXIS2_PLACEMENT_3D('',#333,#273,#274);
#226=AXIS2_PLACEMENT_3D('',#335,#275,#276);
#227=AXIS2_PLACEMENT_3D('',#337,#277,#278);
#228=AXIS2_PLACEMENT_3D('',#338,#279,#280);
#229=AXIS2_PLACEMENT_3D('',#340,#281,#282);
#230=AXIS2_PLACEMENT_3D('',#341,#283,#284);
#231=AXIS2_PLACEMENT_3D('',#343,#285,#286);
#232=AXIS2_PLACEMENT_3D('',#344,#287,#288);
#233=AXIS2_PLACEMENT_3D('',#345,#289,#290);
#234=AXIS2_PLACEMENT_3D('',#347,#291,#292);
#235=AXIS2_PLACEMENT_3D('',#348,#293,#294);
#236=AXIS2_PLACEMENT_3D('',#350,#295,#296);
#237=AXIS2_PLACEMENT_3D('',#351,#297,#298);
#238=AXIS2_PLACEMENT_3D('',#352,#299,#300);
#239=AXIS2_PLACEMENT_3D('',#353,#301,#302);
#240=AXIS2_PLACEMENT_3D('',#354,#303,#304);
#241=AXIS2_PLACEMENT_3D('',#356,#305,#306);
#242=AXIS2_PLACEMENT_3D('',#357,#307,#308);
#243=DIRECTION('axis',(0.,0.,1.));
#244=DIRECTION('refdir',(1.,0.,0.));
#245=DIRECTION('center_axis',(-3.33910957739841E-16,-1.,-1.21628342386994E-15));
#246=DIRECTION('ref_axis',(-0.236948060133789,-1.10154940724527E-15,0.971522319248937));
#247=DIRECTION('center_axis',(4.58517161183402E-17,1.,1.17636790815955E-15));
#248=DIRECTION('ref_axis',(-1.,6.53592923182738E-17,3.62878369548551E-16));
#249=DIRECTION('center_axis',(4.58517161183402E-17,1.,1.17636790815955E-15));
#250=DIRECTION('ref_axis',(-1.,6.53592923182738E-17,3.62878369548551E-16));
#251=DIRECTION('center_axis',(-3.33910957739841E-16,-1.,-1.21628342386994E-15));
#252=DIRECTION('ref_axis',(-0.783239601166443,0.,-0.621719974879875));
#253=DIRECTION('center_axis',(-1.09478979276239E-16,1.,1.17636790815955E-15));
#254=DIRECTION('ref_axis',(4.22994972382185E-16,-1.16323617405101E-15,1.));
#255=DIRECTION('center_axis',(-1.09478979276239E-16,1.,1.17636790815955E-15));
#256=DIRECTION('ref_axis',(-1.,1.26788955310941E-16,3.62878369548551E-16));
#257=DIRECTION('center_axis',(1.09478979276239E-16,-1.,-1.17636790815955E-15));
#258=DIRECTION('ref_axis',(-1.,-1.09478979276239E-16,3.62878369548551E-16));
#259=DIRECTION('center_axis',(1.09478979276239E-16,-1.,-1.17636790815955E-15));
#260=DIRECTION('ref_axis',(-1.,-1.09478979276239E-16,3.62878369548551E-16));
#261=DIRECTION('center_axis',(-4.58517161183402E-17,-1.,-1.17636790815955E-15));
#262=DIRECTION('ref_axis',(-1.,-1.09478979276239E-16,3.62878369548551E-16));
#263=DIRECTION('center_axis',(1.09478979276239E-16,-1.,-1.17636790815955E-15));
#264=DIRECTION('ref_axis',(-4.22994972382185E-16,1.12798659301916E-15,-1.));
#265=DIRECTION('center_axis',(1.09478979276239E-16,-1.,-1.17636790815955E-15));
#266=DIRECTION('ref_axis',(-1.,1.26788955310941E-16,3.62878369548551E-16));
#267=DIRECTION('center_axis',(1.09478979276239E-16,-1.,-1.17636790815955E-15));
#268=DIRECTION('ref_axis',(-1.,-1.09478979276239E-16,3.62878369548551E-16));
#269=DIRECTION('center_axis',(1.09478979276239E-16,-1.,-1.17636790815955E-15));
#270=DIRECTION('ref_axis',(-1.,-1.09478979276239E-16,3.62878369548551E-16));
#271=DIRECTION('center_axis',(4.58517161183402E-17,1.,1.17636790815955E-15));
#272=DIRECTION('ref_axis',(-1.,3.81847982235929E-17,3.62878369548551E-16));
#273=DIRECTION('center_axis',(4.58517161183402E-17,1.,1.17636790815955E-15));
#274=DIRECTION('ref_axis',(1.,-5.65232567091133E-17,-3.62878369548551E-16));
#275=DIRECTION('center_axis',(4.58517161183402E-17,1.,1.17636790815955E-15));
#276=DIRECTION('ref_axis',(-1.,6.53592923182738E-17,3.62878369548551E-16));
#277=DIRECTION('center_axis',(-4.58517161183402E-17,-1.,-1.17636790815955E-15));
#278=DIRECTION('ref_axis',(1.,-6.53592923182738E-17,-3.62878369548551E-16));
#279=DIRECTION('center_axis',(4.58517161183402E-17,1.,1.17636790815955E-15));
#280=DIRECTION('ref_axis',(-1.,6.53592923182738E-17,3.62878369548551E-16));
#281=DIRECTION('center_axis',(4.58517161183402E-17,1.,1.17636790815955E-15));
#282=DIRECTION('ref_axis',(1.,-6.53592923182738E-17,-3.62878369548551E-16));
#283=DIRECTION('center_axis',(-4.58517161183401E-17,-1.,-1.17636790815955E-15));
#284=DIRECTION('ref_axis',(1.,-5.65232567091133E-17,-3.62878369548551E-16));
#285=DIRECTION('center_axis',(-4.58517161183402E-17,-1.,-1.17636790815955E-15));
#286=DIRECTION('ref_axis',(1.,-4.58517161183398E-17,-3.62878369548551E-16));
#287=DIRECTION('center_axis',(4.58517161183402E-17,1.,1.17636790815955E-15));
#288=DIRECTION('ref_axis',(3.52495810318487E-16,-1.12798659301916E-15,1.));
#289=DIRECTION('center_axis',(4.58517161183402E-17,1.,1.17636790815955E-15));
#290=DIRECTION('ref_axis',(3.62878369548551E-16,-1.20024110770287E-15,1.));
#291=DIRECTION('center_axis',(4.58517161183402E-17,1.,1.17636790815955E-15));
#292=DIRECTION('ref_axis',(-1.,6.53592923182738E-17,3.62878369548551E-16));
#293=DIRECTION('center_axis',(4.58517161183402E-17,1.,1.17636790815955E-15));
#294=DIRECTION('ref_axis',(3.52495810318487E-16,-1.12798659301916E-15,1.));
#295=DIRECTION('center_axis',(4.58517161183402E-17,1.,1.17636790815955E-15));
#296=DIRECTION('ref_axis',(-1.,6.53592923182738E-17,3.62878369548551E-16));
#297=DIRECTION('center_axis',(4.58517161183402E-17,1.,1.17636790815955E-15));
#298=DIRECTION('ref_axis',(-1.,6.53592923182738E-17,3.62878369548551E-16));
#299=DIRECTION('center_axis',(-4.58517161183402E-17,-1.,-1.17636790815955E-15));
#300=DIRECTION('ref_axis',(-4.22994972382185E-16,1.17645476693795E-15,-1.));
#301=DIRECTION('center_axis',(4.58517161183402E-17,1.,1.17636790815955E-15));
#302=DIRECTION('ref_axis',(-1.,1.26788955310941E-16,3.62878369548551E-16));
#303=DIRECTION('center_axis',(0.,1.,0.));
#304=DIRECTION('ref_axis',(-0.783239601166443,0.,-0.621719974879875));
#305=DIRECTION('center_axis',(0.,-1.,0.));
#306=DIRECTION('ref_axis',(-0.783239601166443,0.,-0.621719974879875));
#307=DIRECTION('center_axis',(0.,-1.,0.));
#308=DIRECTION('ref_axis',(-0.783239601166443,0.,-0.621719974879875));
#309=CARTESIAN_POINT('',(0.,0.,0.));
#310=CARTESIAN_POINT('Origin',(-5.42137754236829E-17,0.0049999999999995,
6.46237876579724E-15));
#311=CARTESIAN_POINT('',(-0.272006460298586,0.00499999999999936,0.186848830758548));
#312=CARTESIAN_POINT('',(-0.330000000000001,0.00499999999999927,6.52677634670619E-15));
#313=CARTESIAN_POINT('Origin',(-7.74217711292787E-16,0.00499999999999919,
6.40702648475516E-15));
#314=CARTESIAN_POINT('Origin',(-7.74217711292787E-16,0.00499999999999919,
6.40702648475516E-15));
#315=CARTESIAN_POINT('',(0.139235040279662,0.00499999999999906,0.293664099879983));
#316=CARTESIAN_POINT('Origin',(-5.24514814783538E-16,0.0049999999999995,
-9.6161049376982E-16));
#317=CARTESIAN_POINT('Origin',(-0.373750000000001,0.104999999999999,6.66028906618989E-15));
#318=CARTESIAN_POINT('',(-0.377500000000001,0.104999999999999,6.6616498600757E-15));
#319=CARTESIAN_POINT('Origin',(-7.69632539680953E-16,0.104999999999999,
6.52466327557112E-15));
#320=CARTESIAN_POINT('',(-0.370000000000001,0.104999999999999,6.65892827230408E-15));
#321=CARTESIAN_POINT('Origin',(-6.84200657213934E-16,0.104999999999999,
6.52466327557112E-15));
#322=CARTESIAN_POINT('Origin',(-6.78726708250122E-16,0.0549999999999993,
6.46584488016314E-15));
#323=CARTESIAN_POINT('',(-0.370000000000001,0.00499999999999927,6.54129148148813E-15));
#324=CARTESIAN_POINT('Origin',(-6.7325275928631E-16,0.00499999999999932,
6.40702648475516E-15));
#325=CARTESIAN_POINT('Origin',(-0.373750000000001,0.354999999999999,6.95438104322978E-15));
#326=CARTESIAN_POINT('',(-0.377500000000001,0.354999999999999,6.95574183711558E-15));
#327=CARTESIAN_POINT('Origin',(-7.58169610651368E-16,0.354999999999999,
6.818755252611E-15));
#328=CARTESIAN_POINT('',(-0.370000000000001,0.354999999999999,6.95302024934397E-15));
#329=CARTESIAN_POINT('Origin',(-7.11570402032994E-16,0.354999999999999,
6.81875525261101E-15));
#330=CARTESIAN_POINT('Origin',(-7.15402166307662E-16,0.389999999999999,
6.85992812939659E-15));
#331=CARTESIAN_POINT('',(-0.370000000000001,0.424999999999999,7.03536600291514E-15));
#332=CARTESIAN_POINT('Origin',(-7.54959990523084E-16,0.424999999999999,
6.90110100618217E-15));
#333=CARTESIAN_POINT('Origin',(-7.52633015930078E-16,0.475749999999999,
6.96080167752127E-15));
#334=CARTESIAN_POINT('',(-0.103500000000001,0.464999999999999,6.98571363375683E-15));
#335=CARTESIAN_POINT('Origin',(-7.5312592187835E-16,0.464999999999999,6.94815572250856E-15));
#336=CARTESIAN_POINT('',(-0.125000000000001,0.486499999999999,7.00349934373821E-15));
#337=CARTESIAN_POINT('Origin',(-7.52140109981806E-16,0.486499999999999,
6.97344763253399E-15));
#338=CARTESIAN_POINT('Origin',(-7.48770008847108E-16,0.559999999999999,
7.05991067378371E-15));
#339=CARTESIAN_POINT('',(-0.125000000000001,0.633499999999999,7.20704159621635E-15));
#340=CARTESIAN_POINT('Origin',(-7.4539990771241E-16,0.633499999999999,7.14637371503344E-15));
#341=CARTESIAN_POINT('Origin',(-7.44907001764137E-16,0.644249999999999,
7.15901967004615E-15));
#342=CARTESIAN_POINT('',(-0.103500000000001,0.654999999999999,7.19654844193597E-15));
#343=CARTESIAN_POINT('Origin',(-7.44414095815865E-16,0.654999999999999,
7.17166562505887E-15));
#344=CARTESIAN_POINT('Origin',(-0.0625000000000007,0.654999999999999,7.19434552315565E-15));
#345=CARTESIAN_POINT('Origin',(-7.62943498480959E-16,0.424999999999999,
6.90110100618217E-15));
#346=CARTESIAN_POINT('',(-0.340000000000001,0.454999999999999,7.05977068907347E-15));
#347=CARTESIAN_POINT('Origin',(-7.53584439039533E-16,0.454999999999999,
6.93639204342696E-15));
#348=CARTESIAN_POINT('Origin',(-0.221750000000001,0.454999999999999,7.01686032187435E-15));
#349=CARTESIAN_POINT('',(-0.103500000000001,0.454999999999999,6.97394995467523E-15));
#350=CARTESIAN_POINT('Origin',(-7.53584439039533E-16,0.454999999999999,
6.93639204342696E-15));
#351=CARTESIAN_POINT('Origin',(-7.53355180458942E-16,0.459999999999999,
6.94227388296776E-15));
#352=CARTESIAN_POINT('Origin',(-0.373750000000001,0.00499999999999927,6.54265227537393E-15));
#353=CARTESIAN_POINT('Origin',(-7.71925125486869E-16,0.0549999999999993,
6.46584488016314E-15));
#354=CARTESIAN_POINT('Origin',(-5.24514814783538E-16,0.,-9.6161049376982E-16));
#355=CARTESIAN_POINT('',(0.254552870379093,0.,0.202058991835958));
#356=CARTESIAN_POINT('Origin',(-5.24514814783538E-16,0.,-9.6161049376982E-16));
#357=CARTESIAN_POINT('Origin',(-5.24514814783538E-16,0.,-9.6161049376982E-16));
#358=UNCERTAINTY_MEASURE_WITH_UNIT(LENGTH_MEASURE(0.000393700787401575),
#362,'DISTANCE_ACCURACY_VALUE',
'Maximum model space distance between geometric entities at asserted c
onnectivities');
#359=UNCERTAINTY_MEASURE_WITH_UNIT(LENGTH_MEASURE(1.E-6),#363,
'DISTANCE_ACCURACY_VALUE',
'Maximum model space distance between geometric entities at asserted c
onnectivities');
#360=(
GEOMETRIC_REPRESENTATION_CONTEXT(3)
GLOBAL_UNCERTAINTY_ASSIGNED_CONTEXT((#358))
GLOBAL_UNIT_ASSIGNED_CONTEXT((#362,#368,#365))
REPRESENTATION_CONTEXT('','3D')
);
#361=(
GEOMETRIC_REPRESENTATION_CONTEXT(3)
GLOBAL_UNCERTAINTY_ASSIGNED_CONTEXT((#359))
GLOBAL_UNIT_ASSIGNED_CONTEXT((#363,#368,#365))
REPRESENTATION_CONTEXT('','3D')
);
#362=(
CONVERSION_BASED_UNIT('__CONSTANT UNIT inch',#364)
LENGTH_UNIT()
NAMED_UNIT(#367)
);
#363=(
LENGTH_UNIT()
NAMED_UNIT(*)
SI_UNIT(.MILLI.,.METRE.)
);
#364=LENGTH_MEASURE_WITH_UNIT(LENGTH_MEASURE(25.4),#363);
#365=(
NAMED_UNIT(*)
SI_UNIT($,.STERADIAN.)
SOLID_ANGLE_UNIT()
);
#366=DIMENSIONAL_EXPONENTS(0.,0.,0.,0.,0.,0.,0.);
#367=DIMENSIONAL_EXPONENTS(1.,0.,0.,0.,0.,0.,0.);
#368=(
CONVERSION_BASED_UNIT('degree',#370)
NAMED_UNIT(#366)
PLANE_ANGLE_UNIT()
);
#369=(
NAMED_UNIT(*)
PLANE_ANGLE_UNIT()
SI_UNIT($,.RADIAN.)
);
#370=PLANE_ANGLE_MEASURE_WITH_UNIT(PLANE_ANGLE_MEASURE(0.01745329252),#369);
#371=SHAPE_DEFINITION_REPRESENTATION(#372,#373);
#372=PRODUCT_DEFINITION_SHAPE('',$,#375);
#373=SHAPE_REPRESENTATION('',(#210),#360);
#374=PRODUCT_DEFINITION_CONTEXT('part definition',#379,'design');
#375=PRODUCT_DEFINITION('MH136-1A','MH136-1A',#376,#374);
#376=PRODUCT_DEFINITION_FORMATION('',$,#381);
#377=PRODUCT_RELATED_PRODUCT_CATEGORY('MH136-1A','MH136-1A',(#381));
#378=APPLICATION_PROTOCOL_DEFINITION('international standard',
'automotive_design',2009,#379);
#379=APPLICATION_CONTEXT(
'Core Data for Automotive Mechanical Design Process');
#380=PRODUCT_CONTEXT('part definition',#379,'mechanical');
#381=PRODUCT('MH136-1A','MH136-1A',$,(#380));
#382=PRESENTATION_STYLE_ASSIGNMENT((#386));
#383=PRESENTATION_STYLE_ASSIGNMENT((#387));
#384=PRESENTATION_STYLE_ASSIGNMENT((#388));
#385=PRESENTATION_STYLE_ASSIGNMENT((#389));
#386=SURFACE_STYLE_USAGE(.BOTH.,#390);
#387=SURFACE_STYLE_USAGE(.BOTH.,#391);
#388=SURFACE_STYLE_USAGE(.BOTH.,#392);
#389=SURFACE_STYLE_USAGE(.BOTH.,#393);
#390=SURFACE_SIDE_STYLE('',(#394));
#391=SURFACE_SIDE_STYLE('',(#395));
#392=SURFACE_SIDE_STYLE('',(#396));
#393=SURFACE_SIDE_STYLE('',(#397));
#394=SURFACE_STYLE_FILL_AREA(#398);
#395=SURFACE_STYLE_FILL_AREA(#399);
#396=SURFACE_STYLE_FILL_AREA(#400);
#397=SURFACE_STYLE_FILL_AREA(#401);
#398=FILL_AREA_STYLE('',(#402));
#399=FILL_AREA_STYLE('',(#403));
#400=FILL_AREA_STYLE('',(#404));
#401=FILL_AREA_STYLE('',(#405));
#402=FILL_AREA_STYLE_COLOUR('',#406);
#403=FILL_AREA_STYLE_COLOUR('',#407);
#404=FILL_AREA_STYLE_COLOUR('',#408);
#405=FILL_AREA_STYLE_COLOUR('',#409);
#406=COLOUR_RGB('',0.749019607843137,0.749019607843137,0.749019607843137);
#407=COLOUR_RGB('',0.,0.,0.);
#408=COLOUR_RGB('',0.956862745098039,0.956862745098039,0.956862745098039);
#409=COLOUR_RGB('',0.541176470588235,0.541176470588235,0.545098039215686);
ENDSEC;
END-ISO-10303-21;
